Weihnachtslieder für Gitarre

Stille Nacht Gitarren Tabs

Die Tabs zu Stille Nacht Heilige Nacht geben die Melodie wieder. Ein sehr einfaches Stück, besonders für Anfänger geeignet. Der Grundakkord für die Begleitung wäre hier E-Dur. Du findest hier die Akkorde zu Stille Nacht mit Text in voller Länge, allerdings in G. Um diese Tabs mit den Akkorden zusammen zu bringen, musst du lediglich diese Akkorde um 9 Halbtöne nach oben transponieren. Aus einem G wird also ein E, aus einem D wird ein H, aus einem C ein A usw.

E|-0--2---0--|----|-0-----2---0--|-----|-7--7----|-4----|-5-----5--|
B|-----------|-2--|--------------|-2---|---------|------|----------|
G|-----------|----|--------------|-----|---------|------|----------|
D|-----------|----|--------------|-----|---------|------|----------|
A|-----------|----|--------------|-----|---------|------|----------|
E|-----------|----|--------------|-----|---------|------|----------|


E|-0--|-2--2---|-5---4---2---|-----2---0----|------|-2---2----|-5---4---2-|
B|----|--------|-------------|-2------------|-2----|----------|-----------|
G|----|--------|-------------|--------------|------|----------|-----------|
D|----|--------|-------------|--------------|------|----------|-----------|
A|----|--------|-------------|--------------|------|----------|-----------|
E|----|--------|-------------|--------------|------|----------|-----------|


E|-0---2---0----|-----|-7--7---|-10----7---4----|-5---|-9---|-5---0-------|
B|--------------|-2---|--------|----------------|-----|-----|---------2---|
G|--------------|-----|--------|----------------|-----|-----|-------------|
D|--------------|-----|--------|----------------|-----|-----|-------------|
A|--------------|-----|--------|----------------|-----|-----|-------------|
E|--------------|-----|--------|----------------|-----|-----|-------------|


E|-0----------|-----|-----|-0----2---0---|------|-0-----2---0----|-----|
B|----3---0---|-----|-----|-2------------|-2----|-2--------------|-2---|
G|------------|-2---|-2---|--------------|------|----------------|-----|
D|------------|-----|-----|--------------|------|----------------|-----|
A|------------|-----|-----|--------------|------|----------------|-----|
E|------------|-----|-----|--------------|------|----------------|-----|


E|-7---7---|-4----|-5---5---|-0----|-2---2---|-5---4---2---|-0---2---0---|
B|---------|------|---------|------|---------|-------------|-2-----------|
G|---------|------|---------|------|---------|-------------|-------------|
D|---------|------|---------|------|---------|-------------|-------------|
A|---------|------|---------|------|---------|-------------|-------------|
E|---------|------|---------|------|---------|-------------|-------------|


E|-----|-2---2---|-5---4---2---|-0--2---0---|-----|-7---7---|-10--7---4---|
B|-2---|---------|-------------|-2----------|-2---|---------|-------------|
G|-----|---------|-------------|------------|-----|---------|-------------|
D|-----|---------|-------------|------------|-----|---------|-------------|
A|-----|---------|-------------|------------|-----|---------|-------------|
E|-----|---------|-------------|------------|-----|---------|-------------|


E|-5------|-9------|-5----0---------|-0--------------|--------|--------|
B|--------|--------|-7----0----2----|-------3---0----|--------|--------|
G|--------|--------|----------------|----------------|-2------|-2------|
D|--------|--------|----------------|----------------|--------|--------|
A|--------|--------|----------------|----------------|--------|--------|
E|--------|--------|----------------|----------------|--------|--------|


Stille Nacht Gitarren Tabs
3.5 (70.48%) 21 votes

Auch interessant


Keine Kommentare

Hinterlasse mir einen Kommentar

Diese Website verwendet Akismet, um Spam zu reduzieren. Erfahre mehr darüber, wie deine Kommentardaten verarbeitet werden.